  0
SECTION
  2
HEADER
  9
$ACADVER
  1
AC1009
  9
$INSBASE
 10
0
 20
0
 30
0
  9
$EXTMIN
 10
0
 20
0
  9
$EXTMAX
 10
1782
 20
1260
  9
$LIMMIN
 10
0
 20
0
  9
$LIMMAX
 10
1782
 20
1260
  9
$LTSCALE
 40
6
  0
ENDSEC
  0
SECTION
  2
TABLES
  0
TABLE
  2
LTYPE
 70
     9
  0
LTYPE
  2
CONTINUOUS
 70
    64
  3
実線
 72
    65
 73
     0
 40
0.0
  0
LTYPE
  2
DASHED1
 70
    64
  3
--  --  --  --  --  --  --  --  
 72
    65
 73
     2
 40
2.5
 49
1.25
 49
-1.25
  0
LTYPE
  2
DASHED2
 70
    64
  3
----    ----    ----    ----    
 72
    65
 73
     2
 40
5.0
 49
2.5
 49
-2.5
  0
LTYPE
  2
DASHED3
 70
    64
  3
------  ------  ------  ------  
 72
    65
 73
     2
 40
5.0
 49
3.75
 49
-1.25
  0
LTYPE
  2
CENTER1
 70
    64
  3
----- - ----- - ----- - ----- - 
 72
    65
 73
     4
 40
10.0
 49
6.25
 49
-1.25
 49
1.25
 49
-1.25
  0
LTYPE
  2
CENTER2
 70
    64
  3
----------  --  ----------  --  
 72
    65
 73
     4
 40
20.0
 49
12.5
 49
-2.5
 49
2.5
 49
-2.5
  0
LTYPE
  2
PHANTOM1
 70
    64
  3
--- - - --- - - --- - - --- - - 
 72
    65
 73
     6
 40
10.0
 49
3.25
 49
-1.25
 49
1.25
 49
-1.25
 49
1.25
 49
-1.25
  0
LTYPE
  2
PHANTOM2
 70
    64
  3
--------  -  -  --------  -  -  
 72
    65
 73
     6
 40
20.0
 49
10.0
 49
-2.5
 49
1.25
 49
-2.5
 49
1.25
 49
-2.5
  0
LTYPE
  2
DOT
 70
    64
  3
-   -   -   -   -   -   -   -   
 72
    65
 73
     2
 40
2.5
 49
0.625
 49
-1.875
  0
LTYPE
  2
DUMMY
 70
    64
  3
ダミー
 72
    65
 73
     0
 40
0.0
  0
LTYPE
  2
RAND1
 70
    64
  3
ランダム線1
 72
    65
 73
     4
 40
10.0
 49
1.0
 49
-2.0
 49
3.0
 49
-4.0
  0
LTYPE
  2
RAND2
 70
    64
  3
ランダム線2
 72
    65
 73
     4
 40
14.0
 49
2.0
 49
-3.0
 49
4.0
 49
-5.0
  0
LTYPE
  2
RAND3
 70
    64
  3
ランダム線3
 72
    65
 73
     4
 40
18.0
 49
3.0
 49
-4.0
 49
5.0
 49
-6.0
  0
LTYPE
  2
RAND4
 70
    64
  3
ランダム線4
 72
    65
 73
     4
 40
22.0
 49
4.0
 49
-5.0
 49
6.0
 49
-7.0
  0
LTYPE
  2
RAND5
 70
    64
  3
ランダム線5
 72
    65
 73
     4
 40
26.0
 49
5.0
 49
-6.0
 49
7.0
 49
-8.0
  0
LTYPE
  2
LONG1
 70
    64
  3
----------  --  ----------  --  
 72
    65
 73
     4
 40
40.0
 49
32.5
 49
-2.5
 49
2.5
 49
-2.5
  0
LTYPE
  2
LONG2
 70
    64
  3
--------  -  -  --------  -  -  
 72
    65
 73
     6
 40
40.0
 49
30.0
 49
-2.5
 49
1.25
 49
-2.5
 49
1.25
 49
-2.5
  0
LTYPE
  2
LONG3
 70
    64
  3
+++++++++++++++..+++++++++++++++
 72
    65
 73
     2
 40
40.0
 49
37.5
 49
-2.5
  0
LTYPE
  2
LONG4
 70
    64
  3
+++++++++++++++..+++++++++++++++
 72
    65
 73
     2
 40
80.0
 49
75.0
 49
-5.0
  0
LTYPE
  2
LONG5
 70
    64
  3
----------  --  ----------  --  
 72
    65
 73
     4
 40
60.0
 49
37.5
 49
-7.5
 49
7.5
 49
-7.5
  0
LTYPE
  2
dashed
 70
   64
  3
-------   -------------   ------
 72
   65
 73
    2
 40
7.5
 49
6
 49
-1.5
  0
LTYPE
  2
dashed_spaced
 70
   64
  3
----        --------        ----
 72
   65
 73
    2
 40
12
 49
6
 49
-6
  0
LTYPE
  2
long_dashed_dotted
 70
   64
  3
------------- --- --------------
 72
   65
 73
    4
 40
15.25
 49
12
 49
-1.5
 49
0.25
 49
-1.5
  0
LTYPE
  2
long_dashed_double-dotted
 70
   64
  3
----------- --- --- ------------
 72
   65
 73
    6
 40
17
 49
12
 49
-1.5
 49
0.25
 49
-1.5
 49
0.25
 49
-1.5
  0
LTYPE
  2
long_dashed_triplicate-dotted
 70
   64
  3
--------- --- --- --- ----------
 72
   65
 73
    8
 40
18.75
 49
12
 49
-1.5
 49
0.25
 49
-1.5
 49
0.25
 49
-1.5
 49
0.25
 49
-1.5
  0
LTYPE
  2
dotted
 70
   64
  3
   -       -       -       -    
 72
   65
 73
    2
 40
1.75
 49
0.25
 49
-1.5
  0
LTYPE
  2
chain
 70
   64
  3
-------------- -- --------------
 72
   65
 73
    4
 40
18.5
 49
12
 49
-1.5
 49
3.5
 49
-1.5
  0
LTYPE
  2
chain_double_dash
 70
   64
  3
------------ -- -- -------------
 72
   65
 73
    6
 40
23.5
 49
12
 49
-1.5
 49
3.5
 49
-1.5
 49
3.5
 49
-1.5
  0
LTYPE
  2
dashed_dotted
 70
   64
  3
-----------     -     ----------
 72
   65
 73
    4
 40
9.25
 49
6
 49
-1.5
 49
0.25
 49
-1.5
  0
LTYPE
  2
double-dashed_dotted
 70
   64
  3
------   -----------   -   -----
 72
   65
 73
    6
 40
16.75
 49
6
 49
-1.5
 49
6
 49
-1.5
 49
0.25
 49
-1.5
  0
LTYPE
  2
dashed_double-dotted
 70
   64
  3
---------    -    -    ---------
 72
   65
 73
    6
 40
11
 49
6
 49
-1.5
 49
0.25
 49
-1.5
 49
0.25
 49
-1.5
  0
LTYPE
  2
double-dashed_double-dotted
 70
   64
  3
-----   ---------   -   -   ----
 72
   65
 73
    8
 40
18.5
 49
6
 49
-1.5
 49
6
 49
-1.5
 49
0.25
 49
-1.5
 49
0.25
 49
-1.5
  0
LTYPE
  2
dashed_triplicate-dotted
 70
   64
  3
-------    -    -    -    ------
 72
   65
 73
    8
 40
12.75
 49
6
 49
-1.5
 49
0.25
 49
-1.5
 49
0.25
 49
-1.5
 49
0.25
 49
-1.5
  0
LTYPE
  2
double-dashed_triplicate-dotted
 70
   64
  3
-----  ---------  -  -  -  -----
 72
   65
 73
   10
 40
20.25
 49
6
 49
-1.5
 49
6
 49
-1.5
 49
0.25
 49
-1.5
 49
0.25
 49
-1.5
 49
0.25
 49
-1.5
  0
LTYPE
  2
undefined
 70
   64
  3
--------------------------------
 72
   65
 73
    0
 40
0
  0
ENDTAB
  0
TABLE
  2
STYLE
  5
3
100
AcDbSymbolTable
 70
     1
  0
STYLE
  5
10
100
AcDbSymbolTableRecord
100
AcDbTextStyleTableRecord
  2
STANDARD
 70
     0
 40
0.0
 41
1.0
 50
0.0
 71
     0
 42
0.2
  3
txt
  4
bigfont.shx
  0
STYLE
  5
26
100
AcDbSymbolTableRecord
100
AcDbTextStyleTableRecord
  2
TATEGAKI
 70
    68
 40
0.0
 41
1.0
 50
0.0
 71
     0
 42
1.0
  3
txt
  4
bigfont.shx
  0
ENDTAB
  0
TABLE
  2
LAYER
 70
    2
  0
LAYER
  2
_0-0_
 70
   64
 62
    7
  6
CONTINUOUS
  0
LAYER
  2
ADD_LINE
 70
   64
 62
    7
  6
CONTINUOUS
  0
ENDTAB
  0
ENDSEC
  0
SECTION
  2
BLOCKS
  0
ENDSEC
  0
SECTION
  2
ENTITIES
  0
LINE
  8
_0-0_
  6
CENTER1
 62
    4
 10
1534.3547588333658
 20
805.41177533123937
 11
1534.3547588333658
 21
894.08719425864183
  0
LINE
  8
_0-0_
  6
CONTINUOUS
 62
    7
 10
355.50195150485825
 20
649.41177391729752
 11
1345.5019544211132
 21
649.41177391729752
  0
LINE
  8
_0-0_
  6
CENTER1
 62
    4
 10
1233.0019332119855
 20
815.35880635972183
 11
1233.0019332119855
 21
889.52159866863235
  0
LINE
  8
_0-0_
  6
CONTINUOUS
 62
    7
 10
436.00193810186784
 20
805.41177533123937
 11
500.00195483351297
 21
805.41177533123937
  0
LINE
  8
_0-0_
  6
CONTINUOUS
 62
    7
 10
355.50195150485825
 20
341.41196898235773
 11
1345.5019544211132
 21
341.41196898235773
  0
LINE
  8
_0-0_
  6
CONTINUOUS
 62
    7
 10
1345.5019544211132
 20
341.41196898235773
 11
1345.5019544211132
 21
416.41196562424591
  0
LINE
  8
_0-0_
  6
CONTINUOUS
 62
    7
 10
1345.5019544211132
 20
416.41196562424591
 11
355.50195150485825
 21
416.41196562424591
  0
LINE
  8
_0-0_
  6
CONTINUOUS
 62
    7
 10
355.50195150485825
 20
416.41196562424591
 11
355.50195150485825
 21
341.41196898235773
  0
LINE
  8
_0-0_
  6
CONTINUOUS
 62
    7
 10
1345.5019544211132
 20
649.41177391729752
 11
1345.5019544211132
 21
726.41179076677122
  0
LINE
  8
_0-0_
  6
CONTINUOUS
 62
    7
 10
1345.5019544211132
 20
726.41179076677122
 11
355.50195150485825
 21
726.41179076677122
  0
LINE
  8
_0-0_
  6
CONTINUOUS
 62
    7
 10
355.50195150485825
 20
726.41179076677122
 11
355.50195150485825
 21
649.41177391729752
  0
LINE
  8
_0-0_
  6
CONTINUOUS
 62
    7
 10
1204.0019814038369
 20
802.41177126615662
 11
1204.0019814038369
 21
757.41176278250555
  0
LINE
  8
_0-0_
  6
CONTINUOUS
 62
    7
 10
1198.0019732736712
 20
757.41176278250555
 11
1201.0019248461631
 21
757.41176278250555
  0
LINE
  8
_0-0_
  6
CONTINUOUS
 62
    7
 10
1265.0019415778083
 20
757.41176278250555
 11
1268.0019981354819
 21
757.41176278250555
  0
LINE
  8
_0-0_
  6
CONTINUOUS
 62
    7
 10
1198.0019732736712
 20
726.41179076677122
 11
1268.0019981354819
 21
726.41179076677122
  0
LINE
  8
_0-0_
  6
CONTINUOUS
 62
    7
 10
1198.0019732736712
 20
765.41179112025657
 11
1268.0019981354819
 21
765.41179112025657
  0
LINE
  8
_0-0_
  6
CONTINUOUS
 62
    7
 10
1188.0019247283346
 20
781.41174281057692
 11
1198.0019732736712
 21
773.41176696541675
  0
LINE
  8
_0-0_
  6
CONTINUOUS
 62
    7
 10
1188.0019247283346
 20
749.41178693734537
 11
1198.0019732736712
 21
757.41176278250555
  0
LINE
  8
_0-0_
  6
CONTINUOUS
 62
    7
 10
1268.0019981354819
 20
773.41176696541675
 11
1278.0019416956366
 21
781.41174281057692
  0
LINE
  8
_0-0_
  6
CONTINUOUS
 62
    7
 10
1268.0019981354819
 20
757.41176278250555
 11
1278.0019416956366
 21
749.41178693734537
  0
LINE
  8
_0-0_
  6
CONTINUOUS
 62
    7
 10
1183.0019004556664
 20
781.41174281057692
 11
1183.0019004556664
 21
749.41178693734537
  0
LINE
  8
_0-0_
  6
CONTINUOUS
 62
    7
 10
1188.0019247283346
 20
781.41174281057692
 11
1183.0019004556664
 21
781.41174281057692
  0
LINE
  8
_0-0_
  6
CONTINUOUS
 62
    7
 10
1188.0019247283346
 20
749.41178693734537
 11
1183.0019004556664
 21
749.41178693734537
  0
LINE
  8
_0-0_
  6
CONTINUOUS
 62
    7
 10
1278.0019416956366
 20
749.41178693734537
 11
1283.0019659683048
 21
749.41178693734537
  0
LINE
  8
_0-0_
  6
CONTINUOUS
 62
    7
 10
1278.0019416956366
 20
781.41174281057692
 11
1283.0019659683048
 21
781.41174281057692
  0
LINE
  8
_0-0_
  6
CONTINUOUS
 62
    7
 10
1283.0019659683048
 20
781.41174281057692
 11
1283.0019659683048
 21
749.41178693734537
  0
LINE
  8
_0-0_
  6
CONTINUOUS
 62
    7
 10
1198.0019732736712
 20
773.41176696541675
 11
1198.0019732736712
 21
726.41179076677122
  0
LINE
  8
_0-0_
  6
CONTINUOUS
 62
    7
 10
1268.0019981354819
 20
773.41176696541675
 11
1268.0019981354819
 21
726.41179076677122
  0
LINE
  8
_0-0_
  6
CONTINUOUS
 62
    7
 10
1198.0019732736712
 20
773.41176696541675
 11
1201.0019248461631
 21
773.41176696541675
  0
LINE
  8
_0-0_
  6
CONTINUOUS
 62
    7
 10
1265.0019415778083
 20
773.41176696541675
 11
1268.0019981354819
 21
773.41176696541675
  0
LINE
  8
_0-0_
  6
CONTINUOUS
 62
    7
 10
1201.0019248461631
 20
757.41176278250555
 11
1204.0019814038369
 21
757.41176278250555
  0
LINE
  8
_0-0_
  6
CONTINUOUS
 62
    7
 10
1262.0019900053162
 20
757.41176278250555
 11
1265.0019415778083
 21
757.41176278250555
  0
LINE
  8
_0-0_
  6
CONTINUOUS
 62
    7
 10
1201.0019248461631
 20
805.41177533123937
 11
1265.0019415778083
 21
805.41177533123937
  0
LINE
  8
_0-0_
  6
CONTINUOUS
 62
    7
 10
1262.0019900053162
 20
802.41177126615662
 11
1262.0019900053162
 21
757.41176278250555
  0
LINE
  8
_0-0_
  6
CONTINUOUS
 62
    7
 10
1204.0019814038369
 20
802.41177126615662
 11
1262.0019900053162
 21
802.41177126615662
  0
LINE
  8
_0-0_
  6
CENTER1
 62
    4
 10
1233.0019332119855
 20
722.16125570761187
 11
1233.0019332119855
 21
815.35880635972183
  0
LINE
  8
_0-0_
  6
CONTINUOUS
 62
    7
 10
1209.001900691323
 20
770.411762900334
 11
1209.001900691323
 21
760.4117668475883
  0
LINE
  8
_0-0_
  6
CONTINUOUS
 62
    7
 10
1257.0019657326482
 20
770.411762900334
 11
1257.0019657326482
 21
760.4117668475883
  0
LINE
  8
_0-0_
  6
CONTINUOUS
 62
    7
 10
1204.0019814038369
 20
760.4117668475883
 11
1209.001900691323
 21
760.4117668475883
  0
LINE
  8
_0-0_
  6
CONTINUOUS
 62
    7
 10
1257.0019657326482
 20
760.4117668475883
 11
1262.0019900053162
 21
760.4117668475883
  0
LINE
  8
_0-0_
  6
CONTINUOUS
 62
    7
 10
1204.0019814038369
 20
770.411762900334
 11
1209.001900691323
 21
770.411762900334
  0
LINE
  8
_0-0_
  6
CONTINUOUS
 62
    7
 10
1257.0019657326482
 20
770.411762900334
 11
1262.0019900053162
 21
770.411762900334
  0
LINE
  8
_0-0_
  6
CONTINUOUS
 62
    7
 10
1198.0019732736712
 20
773.41176696541675
 11
1183.3826817103795
 21
773.41176696541675
  0
LINE
  8
_0-0_
  6
CONTINUOUS
 62
    7
 10
1198.0019732736712
 20
757.41176278250555
 11
1183.7792107423759
 21
757.41176278250555
  0
LINE
  8
_0-0_
  6
CONTINUOUS
 62
    7
 10
1268.0019981354819
 20
773.41176696541675
 11
1282.9237520077972
 21
773.41176696541675
  0
LINE
  8
_0-0_
  6
CONTINUOUS
 62
    7
 10
1268.0019981354819
 20
757.41176278250555
 11
1282.7254349992081
 21
757.41176278250555
  0
LINE
  8
_0-0_
  6
CONTINUOUS
 62
    7
 10
1201.0019248461631
 20
729.41174233926301
 11
1265.0019415778083
 21
729.41174233926301
  0
LINE
  8
_0-0_
  6
CONTINUOUS
 62
    7
 10
1265.0019415778083
 20
805.41177533123937
 11
1265.0019415778083
 21
729.41174233926301
  0
LINE
  8
_0-0_
  6
CONTINUOUS
 62
    7
 10
1201.0019248461631
 20
805.41177533123937
 11
1201.0019248461631
 21
729.41174233926301
  0
LINE
  8
_0-0_
  6
CONTINUOUS
 62
    7
 10
439.0019421669507
 20
802.41177126615662
 11
439.0019421669507
 21
757.41176278250555
  0
LINE
  8
_0-0_
  6
CONTINUOUS
 62
    7
 10
433.00193403678509
 20
757.41176278250555
 11
436.00193810186784
 21
757.41176278250555
  0
LINE
  8
_0-0_
  6
CONTINUOUS
 62
    7
 10
500.00195483351297
 20
757.41176278250555
 11
503.00195889859583
 21
757.41176278250555
  0
LINE
  8
_0-0_
  6
CONTINUOUS
 62
    7
 10
433.00193403678509
 20
726.41179076677122
 11
503.00195889859583
 21
726.41179076677122
  0
LINE
  8
_0-0_
  6
CONTINUOUS
 62
    7
 10
433.00193403678509
 20
765.41179112025657
 11
503.00195889859583
 21
765.41179112025657
  0
LINE
  8
_0-0_
  6
CONTINUOUS
 62
    7
 10
423.00193798403939
 20
781.41174281057692
 11
433.00193403678509
 21
773.41176696541675
  0
LINE
  8
_0-0_
  6
CONTINUOUS
 62
    7
 10
423.00193798403939
 20
749.41178693734537
 11
433.00193403678509
 21
757.41176278250555
  0
LINE
  8
_0-0_
  6
CONTINUOUS
 62
    7
 10
503.00195889859583
 20
773.41176696541675
 11
513.00195495134153
 21
781.41174281057692
  0
LINE
  8
_0-0_
  6
CONTINUOUS
 62
    7
 10
503.00195889859583
 20
757.41176278250555
 11
513.00195495134153
 21
749.41178693734537
  0
LINE
  8
_0-0_
  6
CONTINUOUS
 62
    7
 10
418.00193995766654
 20
781.41174281057692
 11
418.00193995766654
 21
749.41178693734537
  0
LINE
  8
_0-0_
  6
CONTINUOUS
 62
    7
 10
423.00193798403939
 20
781.41174281057692
 11
418.00193995766654
 21
781.41174281057692
  0
LINE
  8
_0-0_
  6
CONTINUOUS
 62
    7
 10
423.00193798403939
 20
749.41178693734537
 11
418.00193995766654
 21
749.41178693734537
  0
LINE
  8
_0-0_
  6
CONTINUOUS
 62
    7
 10
513.00195495134153
 20
749.41178693734537
 11
518.00192673141896
 21
749.41178693734537
  0
LINE
  8
_0-0_
  6
CONTINUOUS
 62
    7
 10
513.00195495134153
 20
781.41174281057692
 11
518.00192673141896
 21
781.41174281057692
  0
LINE
  8
_0-0_
  6
CONTINUOUS
 62
    7
 10
518.00192673141896
 20
781.41174281057692
 11
518.00192673141896
 21
749.41178693734537
  0
LINE
  8
_0-0_
  6
CONTINUOUS
 62
    7
 10
433.00193403678509
 20
773.41176696541675
 11
433.00193403678509
 21
726.41179076677122
  0
LINE
  8
_0-0_
  6
CONTINUOUS
 62
    7
 10
503.00195889859583
 20
773.41176696541675
 11
503.00195889859583
 21
726.41179076677122
  0
LINE
  8
_0-0_
  6
CONTINUOUS
 62
    7
 10
433.00193403678509
 20
773.41176696541675
 11
436.00193810186784
 21
773.41176696541675
  0
LINE
  8
_0-0_
  6
CONTINUOUS
 62
    7
 10
500.00195483351297
 20
773.41176696541675
 11
503.00195889859583
 21
773.41176696541675
  0
LINE
  8
_0-0_
  6
CONTINUOUS
 62
    7
 10
436.00193810186784
 20
757.41176278250555
 11
439.0019421669507
 21
757.41176278250555
  0
LINE
  8
_0-0_
  6
CONTINUOUS
 62
    7
 10
497.00195076843022
 20
757.41176278250555
 11
500.00195483351297
 21
757.41176278250555
  0
LINE
  8
_0-0_
  6
CONTINUOUS
 62
    7
 10
497.00195076843022
 20
802.41177126615662
 11
497.00195076843022
 21
757.41176278250555
  0
LINE
  8
_0-0_
  6
CONTINUOUS
 62
    7
 10
439.0019421669507
 20
802.41177126615662
 11
497.00195076843022
 21
802.41177126615662
  0
LINE
  8
_0-0_
  6
CENTER1
 62
    4
 10
468.00194646769046
 20
722.16125570761187
 11
468.00194646769046
 21
815.35880635972183
  0
LINE
  8
_0-0_
  6
CONTINUOUS
 62
    7
 10
444.00196643961897
 20
770.411762900334
 11
444.00196643961897
 21
760.4117668475883
  0
LINE
  8
_0-0_
  6
CONTINUOUS
 62
    7
 10
492.00192649576189
 20
770.411762900334
 11
492.00192649576189
 21
760.4117668475883
  0
LINE
  8
_0-0_
  6
CONTINUOUS
 62
    7
 10
439.0019421669507
 20
760.4117668475883
 11
444.00196643961897
 21
760.4117668475883
  0
LINE
  8
_0-0_
  6
CONTINUOUS
 62
    7
 10
492.00192649576189
 20
760.4117668475883
 11
497.00195076843022
 21
760.4117668475883
  0
LINE
  8
_0-0_
  6
CONTINUOUS
 62
    7
 10
439.0019421669507
 20
770.411762900334
 11
444.00196643961897
 21
770.411762900334
  0
LINE
  8
_0-0_
  6
CONTINUOUS
 62
    7
 10
492.00192649576189
 20
770.411762900334
 11
497.00195076843022
 21
770.411762900334
  0
LINE
  8
_0-0_
  6
CONTINUOUS
 62
    7
 10
433.00193403678509
 20
773.41176696541675
 11
418.38266871978874
 21
773.41176696541675
  0
LINE
  8
_0-0_
  6
CONTINUOUS
 62
    7
 10
433.00193403678509
 20
757.41176278250555
 11
418.77925024437627
 21
757.41176278250555
  0
LINE
  8
_0-0_
  6
CONTINUOUS
 62
    7
 10
503.00195889859583
 20
773.41176696541675
 11
517.92376526350222
 21
773.41176696541675
  0
LINE
  8
_0-0_
  6
CONTINUOUS
 62
    7
 10
503.00195889859583
 20
757.41176278250555
 11
517.72544825491286
 21
757.41176278250555
  0
LINE
  8
_0-0_
  6
CONTINUOUS
 62
    7
 10
436.00193810186784
 20
729.41174233926301
 11
500.00195483351297
 21
729.41174233926301
  0
LINE
  8
_0-0_
  6
CONTINUOUS
 62
    7
 10
500.00195483351297
 20
805.41177533123937
 11
500.00195483351297
 21
729.41174233926301
  0
LINE
  8
_0-0_
  6
CONTINUOUS
 62
    7
 10
436.00193810186784
 20
805.41177533123937
 11
436.00193810186784
 21
729.41174233926301
  0
LINE
  8
_0-0_
  6
CENTER1
 62
    4
 10
436.00193810186784
 20
805.41177533123937
 11
277.78472838530672
 21
805.41177533123937
  0
LINE
  8
_0-0_
  6
CENTER1
 62
    4
 10
468.00194646769046
 20
815.35880635972183
 11
468.00194646769046
 21
889.52159866863235
  0
LINE
  8
_0-0_
  6
CENTER1
 62
    4
 10
1345.5019544211132
 20
726.41179076677122
 11
1345.5019544211132
 21
889.52159866863235
  0
LINE
  8
_0-0_
  6
CENTER1
 62
    4
 10
355.50195150485825
 20
726.41179076677122
 11
355.50195150485825
 21
890.67727555087174
  0
LINE
  8
_0-0_
  6
CENTER1
 62
    4
 10
355.50195150485825
 20
416.41196562424591
 11
355.50195150485825
 21
649.41177391729752
  0
LINE
  8
_0-0_
  6
CENTER1
 62
    4
 10
1345.5019544211132
 20
416.41196562424591
 11
1345.5019544211132
 21
649.41177391729752
  0
LINE
  8
_0-0_
  6
CENTER1
 62
    4
 10
355.50195150485825
 20
890.67727555087174
 11
355.50195150485825
 21
985.5620430611275
  0
LINE
  8
_0-0_
  6
CENTER1
 62
    4
 10
1345.5019544211132
 20
889.52159866863235
 11
1345.5019544211132
 21
987.38490077427446
  0
LINE
  8
_0-0_
  6
CONTINUOUS
 62
    4
 10
355.50195150485825
 20
978.27061220853932
 11
1345.5019544211132
 21
978.27061220853932
  0
LINE
  8
_0-0_
  6
CONTINUOUS
 62
    4
 10
355.50195150485825
 20
978.27061220853932
 11
355.50195150485825
 21
945.45896340152933
  0
LINE
  8
_0-0_
  6
CONTINUOUS
 62
    4
 10
1345.5019544211132
 20
978.27061220853932
 11
1345.5019544211132
 21
945.45896340152933
  0
LINE
  8
_0-0_
  6
CONTINUOUS
 62
    4
 10
355.50195150485825
 20
943.63610568838226
 11
468.00194646769046
 21
943.63610568838226
  0
LINE
  8
_0-0_
  6
CONTINUOUS
 62
    4
 10
355.50195150485825
 20
943.63610568838226
 11
355.50195150485825
 21
899.88731060248995
  0
LINE
  8
_0-0_
  6
CONTINUOUS
 62
    4
 10
468.00194646769046
 20
943.63610568838226
 11
468.00194646769046
 21
899.88731060248995
  0
LINE
  8
_0-0_
  6
CONTINUOUS
 62
    4
 10
468.00194646769046
 20
943.63610568838226
 11
1233.0019332119855
 21
943.63610568838226
  0
LINE
  8
_0-0_
  6
CONTINUOUS
 62
    4
 10
1233.0019332119855
 20
943.63610568838226
 11
1233.0019332119855
 21
899.88731060248995
  0
LINE
  8
_0-0_
  6
CONTINUOUS
 62
    4
 10
1233.0019332119855
 20
943.63610568838226
 11
1345.5019544211132
 21
943.63610568838226
  0
LINE
  8
_0-0_
  6
CONTINUOUS
 62
    4
 10
1345.5019544211132
 20
943.63610568838226
 11
1345.5019544211132
 21
899.88731060248995
  0
LINE
  8
_0-0_
  6
CONTINUOUS
 62
    4
 10
201.45823084709724
 20
805.41177533123937
 11
201.45823084709724
 21
726.41179076677122
  0
LINE
  8
_0-0_
  6
CONTINUOUS
 62
    4
 10
201.45823084709724
 20
805.41177533123937
 11
252.49852240131622
 21
805.41177533123937
  0
LINE
  8
_0-0_
  6
CONTINUOUS
 62
    4
 10
201.45823084709724
 20
726.41179076677122
 11
252.49852240131622
 21
726.41179076677122
  0
LINE
  8
_0-0_
  6
CONTINUOUS
 62
    4
 10
201.45823084709724
 20
726.41179076677122
 11
201.45823084709724
 21
649.41177391729752
  0
LINE
  8
_0-0_
  6
CONTINUOUS
 62
    4
 10
201.45823084709724
 20
649.41177391729752
 11
252.49852240131622
 21
649.41177391729752
  0
LINE
  8
_0-0_
  6
CONTINUOUS
 62
    4
 10
139.48072739825744
 20
805.41177533123937
 11
139.48072739825744
 21
649.41177391729752
  0
LINE
  8
_0-0_
  6
CONTINUOUS
 62
    4
 10
139.48072739825744
 20
805.41177533123937
 11
199.63536001080249
 21
805.41177533123937
  0
LINE
  8
_0-0_
  6
CONTINUOUS
 62
    4
 10
139.48072739825744
 20
649.41177391729752
 11
199.63536001080249
 21
649.41177391729752
  0
LINE
  8
_0-0_
  6
CONTINUOUS
 62
    4
 10
174.11522079526685
 20
416.41196562424591
 11
174.11522079526685
 21
341.41196898235773
  0
LINE
  8
_0-0_
  6
CONTINUOUS
 62
    4
 10
174.11522079526685
 20
416.41196562424591
 11
210.5725719054233
 21
416.41196562424591
  0
LINE
  8
_0-0_
  6
CONTINUOUS
 62
    4
 10
174.11522079526685
 20
341.41196898235773
 11
210.5725719054233
 21
341.41196898235773
  0
LINE
  8
_0-0_
  6
CENTER1
 62
    4
 10
355.50195150485825
 20
726.41179076677122
 11
201.45823084709724
 21
726.41179076677122
  0
LINE
  8
_0-0_
  6
CENTER1
 62
    4
 10
468.00194646769046
 20
889.52159866863235
 11
468.00194646769046
 21
899.88731060248995
  0
LINE
  8
_0-0_
  6
CENTER1
 62
    4
 10
355.50195150485825
 20
649.41177391729752
 11
252.49852240131622
 21
649.41177391729752
  0
LINE
  8
_0-0_
  6
CENTER1
 62
    4
 10
277.78472838530672
 20
805.41177533123937
 11
252.49852240131622
 21
805.41177533123937
  0
LINE
  8
_0-0_
  6
CENTER1
 62
    4
 10
355.50195150485825
 20
416.41196562424591
 11
210.5725719054233
 21
416.41196562424591
  0
LINE
  8
_0-0_
  6
CENTER1
 62
    4
 10
355.50195150485825
 20
341.41196898235773
 11
210.5725719054233
 21
341.41196898235773
  0
LINE
  8
_0-0_
  6
CENTER1
 62
    4
 10
174.11522079526685
 20
341.41196898235773
 11
169.20411897165891
 21
341.41196898235773
  0
LINE
  8
_0-0_
  6
CENTER1
 62
    4
 10
1554.6963727207258
 20
484.63758343435154
 11
1554.6963727207258
 21
347.24053631049787
  0
LINE
  8
_0-0_
  6
CENTER1
 62
    4
 10
1554.6963727207258
 20
347.24053631049787
 11
1554.6963727207258
 21
311.87751136691412
  0
LINE
  8
_0-0_
  6
CONTINUOUS
 62
    7
 10
1526.1963603487345
 20
417.89160053150067
 11
1540.5401707947483
 21
358.83628088166813
  0
LINE
  8
_0-0_
  6
CONTINUOUS
 62
    7
 10
1583.1962801075349
 20
417.89160053150067
 11
1568.6506881419295
 21
358.76268626916362
  0
LINE
  8
_0-0_
  6
CONTINUOUS
 62
    7
 10
1578.341030400692
 20
419.08599069956188
 11
1563.7954384350867
 21
359.95705019092924
  0
LINE
  8
_0-0_
  6
CONTINUOUS
 62
    7
 10
1573.4857806938494
 20
420.28035462132743
 11
1558.9401887282443
 21
361.15144035899038
  0
LINE
  8
_0-0_
  6
CONTINUOUS
 62
    7
 10
1531.0550745665796
 20
419.07173896112033
 11
1545.3989899977755
 21
360.01639306499226
  0
LINE
  8
_0-0_
  6
CONTINUOUS
 62
    7
 10
1535.9137887844247
 20
420.25187739073999
 11
1550.2577042156204
 21
361.19653149461192
  0
LINE
  8
_0-0_
  6
CONTINUOUS
 62
    7
 10
1523.1963037910607
 20
457.89161098877895
 11
1526.1963603487345
 21
457.89161098877895
  0
LINE
  8
_0-0_
  6
CONTINUOUS
 62
    7
 10
1521.1963360760662
 20
419.89159449279077
 11
1521.1963360760662
 21
457.89161098877895
  0
LINE
  8
_0-0_
  6
CONTINUOUS
 62
    7
 10
1523.1963037910607
 20
417.89160053150067
 11
1526.1963603487345
 21
417.89160053150067
  0
LINE
  8
_0-0_
  6
CONTINUOUS
 62
    7
 10
1586.1963366652085
 20
457.89161098877895
 11
1582.9628980481948
 21
457.89161098877895
  0
LINE
  8
_0-0_
  6
CONTINUOUS
 62
    7
 10
1586.1963366652085
 20
417.89160053150067
 11
1583.1962801075349
 21
417.89160053150067
  0
LINE
  8
_0-0_
  6
CONTINUOUS
 62
    7
 10
1588.1963043802029
 20
419.89159449279077
 11
1588.1963043802029
 21
455.89159078119337
  0
LINE
  8
_0-0_
  6
CONTINUOUS
 62
    4
 10
1497.7635384931527
 20
434.89161481820474
 11
1497.7635384931527
 21
398.89159228350661
  0
LINE
  8
_0-0_
  6
CONTINUOUS
 62
    4
 10
1497.7635384931527
 20
434.89161481820474
 11
1505.8446678839134
 21
434.89161481820474
  0
LINE
  8
_0-0_
  6
CONTINUOUS
 62
    4
 10
1497.7635384931527
 20
398.89159228350661
 11
1505.8446678839134
 21
398.89159228350661
  0
LINE
  8
_0-0_
  6
CONTINUOUS
 62
    4
 10
1434.6545310002034
 20
474.89159902918743
 11
1434.6545310002034
 21
345.89160795469536
  0
LINE
  8
_0-0_
  6
CONTINUOUS
 62
    4
 10
1434.6545310002034
 20
474.89159902918743
 11
1458.1280628336901
 21
474.89159902918743
  0
LINE
  8
_0-0_
  6
CONTINUOUS
 62
    4
 10
1434.6545310002034
 20
345.89160795469536
 11
1458.1280628336901
 21
345.89160795469536
  0
LINE
  8
_0-0_
  6
CONTINUOUS
 62
    4
 10
1521.1963360760662
 20
503.33339711782094
 11
1588.1963043802029
 21
503.33339711782094
  0
LINE
  8
_0-0_
  6
CONTINUOUS
 62
    4
 10
1521.1963360760662
 20
503.33339711782094
 11
1521.1963360760662
 21
488.35531869542183
  0
LINE
  8
_0-0_
  6
CONTINUOUS
 62
    4
 10
1588.1963043802029
 20
503.33339711782094
 11
1588.1963043802029
 21
488.35531869542183
  0
LINE
  8
_0-0_
  6
CENTER1
 62
    4
 10
1434.6545310002034
 20
474.89159902918743
 11
1626.4621433567356
 21
474.89159902918743
  0
LINE
  8
_0-0_
  6
CENTER1
 62
    4
 10
1458.1280628336901
 20
345.89160795469536
 11
1626.4621433567356
 21
345.89160795469536
  0
LINE
  8
_0-0_
  6
CENTER1
 62
    4
 10
1521.1963360760662
 20
455.89159078119337
 11
1521.1963360760662
 21
488.35531869542183
  0
LINE
  8
_0-0_
  6
CENTER1
 62
    4
 10
1588.1963043802029
 20
488.35531869542183
 11
1588.1963043802029
 21
419.89159449279077
  0
LINE
  8
_0-0_
  6
CENTER1
 62
    4
 10
1497.7635384931527
 20
434.89161481820474
 11
1568.8267482919582
 21
434.89161481820474
  0
LINE
  8
_0-0_
  6
CENTER1
 62
    4
 10
1497.7635384931527
 20
398.89159228350661
 11
1568.8267482919582
 21
398.89159228350661
  0
LINE
  8
_0-0_
  6
CONTINUOUS
 62
    4
 10
1622.6323889065891
 20
452.29621574961538
 11
1596.9712808380716
 21
452.29621574961538
  0
LINE
  8
_0-0_
  6
CONTINUOUS
 62
    4
 10
1623.460092080606
 20
418.35728855206696
 11
1596.143472678873
 21
418.35728855206696
  0
LINE
  8
_0-0_
  6
CONTINUOUS
 62
    4
 10
1596.9712808380716
 20
452.29621574961538
 11
1560.6962758657094
 21
434.89161481820474
  0
LINE
  8
_0-0_
  6
CONTINUOUS
 62
    4
 10
1596.143472678873
 20
418.35728855206696
 11
1560.6962758657094
 21
398.89159228350661
  0
LINE
  8
_0-0_
  6
CONTINUOUS
 62
    7
 10
1516.8546738790269
 20
649.41177391729752
 11
1591.8547230135059
 21
649.41177391729752
  0
LINE
  8
_0-0_
  6
CONTINUOUS
 62
    7
 10
1591.8547230135059
 20
649.41177391729752
 11
1591.8547230135059
 21
726.41179076677122
  0
LINE
  8
_0-0_
  6
CONTINUOUS
 62
    7
 10
1591.8547230135059
 20
726.41179076677122
 11
1516.8546738790269
 21
726.41179076677122
  0
LINE
  8
_0-0_
  6
CONTINUOUS
 62
    7
 10
1516.8546738790269
 20
726.41179076677122
 11
1516.8546738790269
 21
649.41177391729752
  0
LINE
  8
_0-0_
  6
CONTINUOUS
 62
    7
 10
1534.3547588333658
 20
805.41177533123937
 11
1574.3547430443487
 21
805.41177533123937
  0
LINE
  8
_0-0_
  6
CONTINUOUS
 62
    7
 10
1534.3547588333658
 20
805.41177533123937
 11
1541.8546902571866
 21
771.41174675783134
  0
LINE
  8
_0-0_
  6
CONTINUOUS
 62
    7
 10
1541.8546902571866
 20
771.41174675783134
 11
1541.8546902571866
 21
760.4117668475883
  0
LINE
  8
_0-0_
  6
CONTINUOUS
 62
    7
 10
1541.8546902571866
 20
760.4117668475883
 11
1534.3547588333658
 21
726.41179076677122
  0
LINE
  8
_0-0_
  6
CONTINUOUS
 62
    7
 10
1574.3547430443487
 20
805.41177533123937
 11
1566.8547066353462
 21
771.41174675783134
  0
LINE
  8
_0-0_
  6
CONTINUOUS
 62
    7
 10
1566.8547066353462
 20
771.41174675783134
 11
1566.8547066353462
 21
760.4117668475883
  0
LINE
  8
_0-0_
  6
CONTINUOUS
 62
    7
 10
1566.8547066353462
 20
760.4117668475883
 11
1574.3547430443487
 21
726.41179076677122
  0
LINE
  8
_0-0_
  6
CONTINUOUS
 62
    7
 10
1548.5179947665299
 20
760.42452254718796
 11
1537.8275636650878
 21
765.92453874860485
  0
LINE
  8
_0-0_
  6
CONTINUOUS
 62
    7
 10
1537.8275636650878
 20
765.92453874860485
 11
1537.8275636650878
 21
771.42450245743089
  0
LINE
  8
_0-0_
  6
CONTINUOUS
 62
    7
 10
1537.8275636650878
 20
771.42450245743089
 11
1548.5179947665299
 21
771.42450245743089
  0
LINE
  8
_0-0_
  6
CONTINUOUS
 62
    7
 10
1560.1370198017839
 20
771.42450245743089
 11
1570.8275558884079
 21
765.92453874860485
  0
LINE
  8
_0-0_
  6
CONTINUOUS
 62
    7
 10
1570.8275558884079
 20
765.92453874860485
 11
1570.8275558884079
 21
760.42452254718796
  0
LINE
  8
_0-0_
  6
CONTINUOUS
 62
    7
 10
1570.8275558884079
 20
760.42452254718796
 11
1560.1370198017839
 21
760.42452254718796
  0
LINE
  8
_0-0_
  6
CENTER1
 62
    4
 10
1554.3275597767479
 20
769.60531922564996
 11
1554.3275597767479
 21
762.01405069358555
  0
LINE
  8
_0-0_
  6
CENTER1
 62
    4
 10
1549.9196519299362
 20
765.92453874860485
 11
1559.2251185118921
 21
765.92453874860485
  0
LINE
  8
_0-0_
  6
CONTINUOUS
 62
    4
 10
1516.8546738790269
 20
980.79865538843808
 11
1591.8547230135059
 21
980.79865538843808
  0
LINE
  8
_0-0_
  6
CONTINUOUS
 62
    4
 10
1516.8546738790269
 20
980.79865538843808
 11
1516.8546738790269
 21
943.96544420396958
  0
LINE
  8
_0-0_
  6
CONTINUOUS
 62
    4
 10
1591.8547230135059
 20
980.79865538843808
 11
1591.8547230135059
 21
943.96544420396958
  0
LINE
  8
_0-0_
  6
CONTINUOUS
 62
    4
 10
1534.3547588333658
 20
912.50379985087625
 11
1574.3547430443487
 21
912.50379985087625
  0
LINE
  8
_0-0_
  6
CONTINUOUS
 62
    4
 10
1534.3547588333658
 20
912.50379985087625
 11
1534.3547588333658
 21
894.08719425864183
  0
LINE
  8
_0-0_
  6
CONTINUOUS
 62
    4
 10
1574.3547430443487
 20
912.50379985087625
 11
1574.3547430443487
 21
894.08719425864183
  0
LINE
  8
_0-0_
  6
CONTINUOUS
 62
    4
 10
1574.3547430443487
 20
912.50379985087625
 11
1591.8547230135059
 21
912.50379985087625
  0
LINE
  8
_0-0_
  6
CONTINUOUS
 62
    4
 10
1591.8547230135059
 20
912.50379985087625
 11
1591.8547230135059
 21
894.08719425864183
  0
LINE
  8
_0-0_
  6
CENTER1
 62
    4
 10
1574.3547430443487
 20
805.41177533123937
 11
1574.3547430443487
 21
894.08719425864183
  0
LINE
  8
_0-0_
  6
CENTER1
 62
    4
 10
1516.8546738790269
 20
726.41179076677122
 11
1516.8546738790269
 21
943.96544420396958
  0
LINE
  8
_0-0_
  6
CENTER1
 62
    4
 10
1516.8546738790269
 20
980.79865538843808
 11
1516.8546738790269
 21
984.63544384577085
  0
LINE
  8
_0-0_
  6
CENTER1
 62
    4
 10
1591.8547230135059
 20
726.41179076677122
 11
1591.8547230135059
 21
943.96544420396958
  0
LINE
  8
_0-0_
  6
CENTER1
 62
    4
 10
1591.8547230135059
 20
980.79865538843808
 11
1591.8547230135059
 21
983.10077045691048
  0
LINE
  8
_0-0_
  6
CENTER1
 62
    4
 10
1265.0019415778083
 20
805.41177533123937
 11
1534.3547588333658
 21
805.41177533123937
  0
LINE
  8
_0-0_
  6
CENTER1
 62
    4
 10
1345.5019544211132
 20
726.41179076677122
 11
1516.8546738790269
 21
726.41179076677122
  0
LINE
  8
_0-0_
  6
CENTER1
 62
    4
 10
1345.5019544211132
 20
649.41177391729752
 11
1516.8546738790269
 21
649.41177391729752
  0
CIRCLE
  8
_0-0_
  6
CONTINUOUS
 62
    7
 10
454.36221914401841
 20
394.22177265417622
 40
15.000000640692399
  0
CIRCLE
  8
_0-0_
  6
CONTINUOUS
 62
    7
 10
454.36221914401841
 20
364.2217582496437
 40
15.000000640692399
  0
CIRCLE
  8
_0-0_
  6
CONTINUOUS
 62
    7
 10
480.12595022783319
 20
379.44195874777535
 40
15.000000640692399
  0
CIRCLE
  8
_0-0_
  6
CONTINUOUS
 62
    7
 10
506.33004165708326
 20
394.19552635870377
 40
15.000000640692399
  0
CIRCLE
  8
_0-0_
  6
CONTINUOUS
 62
    7
 10
506.1098352380701
 20
364.24797829882056
 40
15.000000640692399
  0
CIRCLE
  8
_0-0_
  6
CONTINUOUS
 62
    7
 10
454.36221914401841
 20
394.22177265417622
 40
10.000000153729353
  0
CIRCLE
  8
_0-0_
  6
CONTINUOUS
 62
    7
 10
454.36221914401841
 20
364.2217582496437
 40
10.000000153729353
  0
CIRCLE
  8
_0-0_
  6
CONTINUOUS
 62
    7
 10
480.56631057326854
 20
379.22175232876219
 40
10.000000153729353
  0
CIRCLE
  8
_0-0_
  6
CONTINUOUS
 62
    7
 10
506.55024807609641
 20
393.97534618598615
 40
10.000000153729353
  0
CIRCLE
  8
_0-0_
  6
CONTINUOUS
 62
    7
 10
506.77045449510962
 20
363.80756546079419
 40
10.000000153729353
  0
CIRCLE
  8
_0-0_
  6
CONTINUOUS
 62
    7
 10
479.858238014015
 20
401.96750063509558
 40
2.9999999640991328
  0
CIRCLE
  8
_0-0_
  6
CONTINUOUS
 62
    7
 10
479.858238014015
 20
355.85562033634847
 40
2.9999999640991328
  0
CIRCLE
  8
_0-0_
  6
CONTINUOUS
 62
    7
 10
371.06526982370031
 20
394.49667635295373
 40
15.000000640692399
  0
CIRCLE
  8
_0-0_
  6
CONTINUOUS
 62
    7
 10
371.06526982370031
 20
364.49666194842126
 40
15.000000640692399
  0
CIRCLE
  8
_0-0_
  6
CONTINUOUS
 62
    7
 10
396.82897466121949
 20
379.71686244655297
 40
15.000000640692399
  0
CIRCLE
  8
_0-0_
  6
CONTINUOUS
 62
    7
 10
423.03306609046962
 20
394.47045630377687
 40
15.000000640692399
  0
CIRCLE
  8
_0-0_
  6
CONTINUOUS
 62
    7
 10
422.81285967145641
 20
364.52288199759818
 40
15.000000640692399
  0
CIRCLE
  8
_0-0_
  6
CONTINUOUS
 62
    7
 10
371.06526982370031
 20
394.49667635295373
 40
10.000000153729353
  0
CIRCLE
  8
_0-0_
  6
CONTINUOUS
 62
    7
 10
371.06526982370031
 20
364.49666194842126
 40
10.000000153729353
  0
CIRCLE
  8
_0-0_
  6
CONTINUOUS
 62
    7
 10
397.26936125295038
 20
379.49665602753976
 40
10.000000153729353
  0
CIRCLE
  8
_0-0_
  6
CONTINUOUS
 62
    7
 10
423.25327250948283
 20
394.25024988476366
 40
10.000000153729353
  0
CIRCLE
  8
_0-0_
  6
CONTINUOUS
 62
    7
 10
423.47347892849598
 20
364.08249540586723
 40
10.000000153729353
  0
CIRCLE
  8
_0-0_
  6
CONTINUOUS
 62
    7
 10
396.56123620110588
 20
402.24240433387308
 40
2.9999999640991328
  0
CIRCLE
  8
_0-0_
  6
CONTINUOUS
 62
    7
 10
396.56123620110588
 20
356.13052403512609
 40
2.9999999640991328
  0
CIRCLE
  8
_0-0_
  6
CONTINUOUS
 62
    7
 10
536.8344836142993
 20
394.77158005173141
 40
15.000000640692399
  0
CIRCLE
  8
_0-0_
  6
CONTINUOUS
 62
    7
 10
536.8344836142993
 20
364.77156564719888
 40
15.000000640692399
  0
CIRCLE
  8
_0-0_
  6
CONTINUOUS
 62
    7
 10
562.59816220552307
 20
379.99176614533059
 40
15.000000640692399
  0
CIRCLE
  8
_0-0_
  6
CONTINUOUS
 62
    7
 10
588.80230612736409
 20
394.74536000255455
 40
15.000000640692399
  0
CIRCLE
  8
_0-0_
  6
CONTINUOUS
 62
    7
 10
588.58209970835082
 20
364.79778569637574
 40
15.000000640692399
  0
CIRCLE
  8
_0-0_
  6
CONTINUOUS
 62
    7
 10
536.8344836142993
 20
394.77158005173141
 40
10.000000153729353
  0
CIRCLE
  8
_0-0_
  6
CONTINUOUS
 62
    7
 10
536.8344836142993
 20
364.77156564719888
 40
10.000000153729353
  0
CIRCLE
  8
_0-0_
  6
CONTINUOUS
 62
    7
 10
563.03857504354937
 20
379.77158597261285
 40
10.000000153729353
  0
CIRCLE
  8
_0-0_
  6
CONTINUOUS
 62
    7
 10
589.02251254637724
 20
394.52515358354134
 40
10.000000153729353
  0
CIRCLE
  8
_0-0_
  6
CONTINUOUS
 62
    7
 10
589.24266647279944
 20
364.35739910464486
 40
10.000000153729353
  0
CIRCLE
  8
_0-0_
  6
CONTINUOUS
 62
    7
 10
562.33044999170488
 20
402.51730803265076
 40
2.9999999640991328
  0
CIRCLE
  8
_0-0_
  6
CONTINUOUS
 62
    7
 10
562.33044999170488
 20
356.40542773390365
 40
2.9999999640991328
  0
CIRCLE
  8
_0-0_
  6
CONTINUOUS
 62
    7
 10
619.85655548213526
 20
395.04648375050897
 40
15.000000640692399
  0
CIRCLE
  8
_0-0_
  6
CONTINUOUS
 62
    7
 10
619.85655548213526
 20
365.04646934597645
 40
15.000000640692399
  0
CIRCLE
  8
_0-0_
  6
CONTINUOUS
 62
    7
 10
645.62023407335903
 20
380.26669609040363
 40
15.000000640692399
  0
CIRCLE
  8
_0-0_
  6
CONTINUOUS
 62
    7
 10
671.82432550260921
 20
395.02026370133206
 40
15.000000640692399
  0
CIRCLE
  8
_0-0_
  6
CONTINUOUS
 62
    7
 10
671.60411908359606
 20
365.07271564144884
 40
15.000000640692399
  0
CIRCLE
  8
_0-0_
  6
CONTINUOUS
 62
    7
 10
619.85655548213526
 20
395.04648375050897
 40
10.000000153729353
  0
CIRCLE
  8
_0-0_
  6
CONTINUOUS
 62
    7
 10
619.85655548213526
 20
365.04646934597645
 40
10.000000153729353
  0
CIRCLE
  8
_0-0_
  6
CONTINUOUS
 62
    7
 10
646.06064691138533
 20
380.04648967139047
 40
10.000000153729353
  0
CIRCLE
  8
_0-0_
  6
CONTINUOUS
 62
    7
 10
672.04453192162237
 20
394.8000572823189
 40
10.000000153729353
  0
CIRCLE
  8
_0-0_
  6
CONTINUOUS
 62
    7
 10
672.26473834063552
 20
364.63230280342248
 40
10.000000153729353
  0
CIRCLE
  8
_0-0_
  6
CONTINUOUS
 62
    7
 10
645.35252185954084
 20
402.79221173142832
 40
2.9999999640991328
  0
CIRCLE
  8
_0-0_
  6
CONTINUOUS
 62
    7
 10
645.35252185954084
 20
356.68033143268127
 40
2.9999999640991328
  0
CIRCLE
  8
_0-0_
  6
CONTINUOUS
 62
    7
 10
702.44986786713469
 20
394.08655173990252
 40
15.000000640692399
  0
CIRCLE
  8
_0-0_
  6
CONTINUOUS
 62
    7
 10
702.44986786713469
 20
364.08653733537
 40
15.000000640692399
  0
CIRCLE
  8
_0-0_
  6
CONTINUOUS
 62
    7
 10
728.21359895094929
 20
379.30673783350176
 40
15.000000640692399
  0
CIRCLE
  8
_0-0_
  6
CONTINUOUS
 62
    7
 10
754.41769038019947
 20
394.06033169072566
 40
15.000000640692399
  0
CIRCLE
  8
_0-0_
  6
CONTINUOUS
 62
    7
 10
754.19748396118621
 20
364.11275738454691
 40
15.000000640692399
  0
CIRCLE
  8
_0-0_
  6
CONTINUOUS
 62
    7
 10
702.44986786713469
 20
394.08655173990252
 40
10.000000153729353
  0
CIRCLE
  8
_0-0_
  6
CONTINUOUS
 62
    7
 10
702.44986786713469
 20
364.08653733537
 40
10.000000153729353
  0
CIRCLE
  8
_0-0_
  6
CONTINUOUS
 62
    7
 10
728.65395929638476
 20
379.08655766078402
 40
10.000000153729353
  0
CIRCLE
  8
_0-0_
  6
CONTINUOUS
 62
    7
 10
754.63789679921274
 20
393.84012527171245
 40
10.000000153729353
  0
CIRCLE
  8
_0-0_
  6
CONTINUOUS
 62
    7
 10
754.85810321822589
 20
363.67237079281603
 40
10.000000153729353
  0
CIRCLE
  8
_0-0_
  6
CONTINUOUS
 62
    7
 10
727.94583424454026
 20
401.83227972082187
 40
2.9999999640991328
  0
CIRCLE
  8
_0-0_
  6
CONTINUOUS
 62
    7
 10
727.94583424454026
 20
355.72039942207482
 40
2.9999999640991328
  0
CIRCLE
  8
_0-0_
  6
CONTINUOUS
 62
    7
 10
784.37993636554722
 20
394.39625802647652
 40
15.000000640692399
  0
CIRCLE
  8
_0-0_
  6
CONTINUOUS
 62
    7
 10
784.37993636554722
 20
364.39626986823947
 40
15.000000640692399
  0
CIRCLE
  8
_0-0_
  6
CONTINUOUS
 62
    7
 10
810.14366744936206
 20
379.61647036637112
 40
15.000000640692399
  0
CIRCLE
  8
_0-0_
  6
CONTINUOUS
 62
    7
 10
836.34775887861201
 20
394.3700379772996
 40
15.000000640692399
  0
CIRCLE
  8
_0-0_
  6
CONTINUOUS
 62
    7
 10
836.12755245959897
 20
364.42248991741633
 40
15.000000640692399
  0
CIRCLE
  8
_0-0_
  6
CONTINUOUS
 62
    7
 10
784.37993636554722
 20
394.39625802647652
 40
10.000000153729353
  0
CIRCLE
  8
_0-0_
  6
CONTINUOUS
 62
    7
 10
784.37993636554722
 20
364.39626986823947
 40
10.000000153729353
  0
CIRCLE
  8
_0-0_
  6
CONTINUOUS
 62
    7
 10
810.58408028738836
 20
379.39626394735797
 40
10.000000153729353
  0
CIRCLE
  8
_0-0_
  6
CONTINUOUS
 62
    7
 10
836.56796529762528
 20
394.14983155828645
 40
10.000000153729353
  0
CIRCLE
  8
_0-0_
  6
CONTINUOUS
 62
    7
 10
836.78817171663843
 20
363.98207707938997
 40
10.000000153729353
  0
CIRCLE
  8
_0-0_
  6
CONTINUOUS
 62
    7
 10
809.87595523554387
 20
402.14201225369129
 40
2.9999999640991328
  0
CIRCLE
  8
_0-0_
  6
CONTINUOUS
 62
    7
 10
809.87595523554387
 20
356.03010570864876
 40
2.9999999640991328
  0
CIRCLE
  8
_0-0_
  6
CONTINUOUS
 62
    7
 10
866.43535717113593
 20
394.63071618393116
 40
15.000000640692399
  0
CIRCLE
  8
_0-0_
  6
CONTINUOUS
 62
    7
 10
866.43535717113593
 20
364.63070177939869
 40
15.000000640692399
  0
CIRCLE
  8
_0-0_
  6
CONTINUOUS
 62
    7
 10
892.1990357623597
 20
379.85090227753039
 40
15.000000640692399
  0
CIRCLE
  8
_0-0_
  6
CONTINUOUS
 62
    7
 10
918.40312719160977
 20
394.60446988845888
 40
15.000000640692399
  0
CIRCLE
  8
_0-0_
  6
CONTINUOUS
 62
    7
 10
918.18297326518746
 20
364.65692182857555
 40
15.000000640692399
  0
CIRCLE
  8
_0-0_
  6
CONTINUOUS
 62
    7
 10
866.43535717113593
 20
394.63071618393116
 40
10.000000153729353
  0
CIRCLE
  8
_0-0_
  6
CONTINUOUS
 62
    7
 10
866.43535717113593
 20
364.63070177939869
 40
10.000000153729353
  0
CIRCLE
  8
_0-0_
  6
CONTINUOUS
 62
    7
 10
892.63944860038612
 20
379.63069585851719
 40
10.000000153729353
  0
CIRCLE
  8
_0-0_
  6
CONTINUOUS
 62
    7
 10
918.62338610321387
 20
394.38428971574109
 40
10.000000153729353
  0
CIRCLE
  8
_0-0_
  6
CONTINUOUS
 62
    7
 10
918.84354002963619
 20
364.21650899054919
 40
10.000000153729353
  0
CIRCLE
  8
_0-0_
  6
CONTINUOUS
 62
    7
 10
891.93132354854151
 20
402.37644416485051
 40
2.9999999640991328
  0
CIRCLE
  8
_0-0_
  6
CONTINUOUS
 62
    7
 10
891.93132354854151
 20
356.26456386610346
 40
2.9999999640991328
  0
CIRCLE
  8
_0-0_
  6
CONTINUOUS
 62
    7
 10
948.77103591977857
 20
394.08972754165472
 40
15.000000640692399
  0
CIRCLE
  8
_0-0_
  6
CONTINUOUS
 62
    7
 10
948.77103591977857
 20
364.08973938341762
 40
15.000000640692399
  0
CIRCLE
  8
_0-0_
  6
CONTINUOUS
 62
    7
 10
974.53471451100222
 20
379.30993988154938
 40
15.000000640692399
  0
CIRCLE
  8
_0-0_
  6
CONTINUOUS
 62
    7
 10
1000.7388059402524
 20
394.06350749247781
 40
15.000000640692399
  0
CIRCLE
  8
_0-0_
  6
CONTINUOUS
 62
    7
 10
1000.5186520138302
 20
364.11595943259454
 40
15.000000640692399
  0
CIRCLE
  8
_0-0_
  6
CONTINUOUS
 62
    7
 10
948.77103591977857
 20
394.08972754165472
 40
10.000000153729353
  0
CIRCLE
  8
_0-0_
  6
CONTINUOUS
 62
    7
 10
948.77103591977857
 20
364.08973938341762
 40
10.000000153729353
  0
CIRCLE
  8
_0-0_
  6
CONTINUOUS
 62
    7
 10
974.97512734902853
 20
379.08973346253617
 40
10.000000153729353
  0
CIRCLE
  8
_0-0_
  6
CONTINUOUS
 62
    7
 10
1000.9589598666746
 20
393.84330107346466
 40
10.000000153729353
  0
CIRCLE
  8
_0-0_
  6
CONTINUOUS
 62
    7
 10
1001.1792187782787
 20
363.67554659456817
 40
10.000000153729353
  0
CIRCLE
  8
_0-0_
  6
CONTINUOUS
 62
    7
 10
974.26700229718415
 20
401.8354817688695
 40
2.9999999640991328
  0
CIRCLE
  8
_0-0_
  6
CONTINUOUS
 62
    7
 10
974.26700229718415
 20
355.72360147012245
 40
2.9999999640991328
  0
CIRCLE
  8
_0-0_
  6
CONTINUOUS
 62
    7
 10
1031.3012522104623
 20
394.08972754165472
 40
15.000000640692399
  0
CIRCLE
  8
_0-0_
  6
CONTINUOUS
 62
    7
 10
1031.3012522104623
 20
364.08973938341762
 40
15.000000640692399
  0
CIRCLE
  8
_0-0_
  6
CONTINUOUS
 62
    7
 10
1057.0649308016862
 20
379.30993988154938
 40
15.000000640692399
  0
CIRCLE
  8
_0-0_
  6
CONTINUOUS
 62
    7
 10
1083.2690222309361
 20
394.06350749247781
 40
15.000000640692399
  0
CIRCLE
  8
_0-0_
  6
CONTINUOUS
 62
    7
 10
1083.0488683045139
 20
364.11595943259454
 40
15.000000640692399
  0
CIRCLE
  8
_0-0_
  6
CONTINUOUS
 62
    7
 10
1031.3012522104623
 20
394.08972754165472
 40
10.000000153729353
  0
CIRCLE
  8
_0-0_
  6
CONTINUOUS
 62
    7
 10
1031.3012522104623
 20
364.08973938341762
 40
10.000000153729353
  0
CIRCLE
  8
_0-0_
  6
CONTINUOUS
 62
    7
 10
1057.5053436397125
 20
379.08973346253617
 40
10.000000153729353
  0
CIRCLE
  8
_0-0_
  6
CONTINUOUS
 62
    7
 10
1083.4892811425402
 20
393.84330107346466
 40
10.000000153729353
  0
CIRCLE
  8
_0-0_
  6
CONTINUOUS
 62
    7
 10
1083.7094350689626
 20
363.67554659456817
 40
10.000000153729353
  0
CIRCLE
  8
_0-0_
  6
CONTINUOUS
 62
    7
 10
1056.797218587868
 20
401.8354817688695
 40
2.9999999640991328
  0
CIRCLE
  8
_0-0_
  6
CONTINUOUS
 62
    7
 10
1056.797218587868
 20
355.72360147012245
 40
2.9999999640991328
  0
CIRCLE
  8
_0-0_
  6
CONTINUOUS
 62
    7
 10
1113.9571357638679
 20
394.64898360557993
 40
15.000000640692399
  0
CIRCLE
  8
_0-0_
  6
CONTINUOUS
 62
    7
 10
1113.9571357638679
 20
364.64896920104741
 40
15.000000640692399
  0
CIRCLE
  8
_0-0_
  6
CONTINUOUS
 62
    7
 10
1139.7208143550915
 20
379.86916969917911
 40
15.000000640692399
  0
CIRCLE
  8
_0-0_
  6
CONTINUOUS
 62
    7
 10
1165.9249057843417
 20
394.62276355640302
 40
15.000000640692399
  0
CIRCLE
  8
_0-0_
  6
CONTINUOUS
 62
    7
 10
1165.7047518579195
 20
364.67518925022432
 40
15.000000640692399
  0
CIRCLE
  8
_0-0_
  6
CONTINUOUS
 62
    7
 10
1113.9571357638679
 20
394.64898360557993
 40
10.000000153729353
  0
CIRCLE
  8
_0-0_
  6
CONTINUOUS
 62
    7
 10
1113.9571357638679
 20
364.64896920104741
 40
10.000000153729353
  0
CIRCLE
  8
_0-0_
  6
CONTINUOUS
 62
    7
 10
1140.1612271931181
 20
379.64898952646143
 40
10.000000153729353
  0
CIRCLE
  8
_0-0_
  6
CONTINUOUS
 62
    7
 10
1166.1451646959458
 20
394.40255713738986
 40
10.000000153729353
  0
CIRCLE
  8
_0-0_
  6
CONTINUOUS
 62
    7
 10
1166.3653186223682
 20
364.23480265849344
 40
10.000000153729353
  0
CIRCLE
  8
_0-0_
  6
CONTINUOUS
 62
    7
 10
1139.4531021412733
 20
402.39471158649928
 40
2.9999999640991328
  0
CIRCLE
  8
_0-0_
  6
CONTINUOUS
 62
    7
 10
1139.4531021412733
 20
356.28283128775223
 40
2.9999999640991328
  0
CIRCLE
  8
_0-0_
  6
CONTINUOUS
 62
    7
 10
1196.693332981419
 20
395.03559153788797
 40
15.000000640692399
  0
CIRCLE
  8
_0-0_
  6
CONTINUOUS
 62
    7
 10
1196.693332981419
 20
365.03560337965092
 40
15.000000640692399
  0
CIRCLE
  8
_0-0_
  6
CONTINUOUS
 62
    7
 10
1222.4570115726426
 20
380.25580387778257
 40
15.000000640692399
  0
CIRCLE
  8
_0-0_
  6
CONTINUOUS
 62
    7
 10
1248.6611030018928
 20
395.00937148871105
 40
15.000000640692399
  0
CIRCLE
  8
_0-0_
  6
CONTINUOUS
 62
    7
 10
1248.4409490754706
 20
365.06182342882778
 40
15.000000640692399
  0
CIRCLE
  8
_0-0_
  6
CONTINUOUS
 62
    7
 10
1196.693332981419
 20
395.03559153788797
 40
10.000000153729353
  0
CIRCLE
  8
_0-0_
  6
CONTINUOUS
 62
    7
 10
1196.693332981419
 20
365.03560337965092
 40
10.000000153729353
  0
CIRCLE
  8
_0-0_
  6
CONTINUOUS
 62
    7
 10
1222.8974244106689
 20
380.03559745876942
 40
10.000000153729353
  0
CIRCLE
  8
_0-0_
  6
CONTINUOUS
 62
    7
 10
1248.8813619134969
 20
394.7891650696979
 40
10.000000153729353
  0
CIRCLE
  8
_0-0_
  6
CONTINUOUS
 62
    7
 10
1249.1015158399191
 20
364.62141059080142
 40
10.000000153729353
  0
CIRCLE
  8
_0-0_
  6
CONTINUOUS
 62
    7
 10
1222.1892993588244
 20
402.78134576510274
 40
2.9999999640991328
  0
CIRCLE
  8
_0-0_
  6
CONTINUOUS
 62
    7
 10
1222.1892993588244
 20
356.66943922006021
 40
2.9999999640991328
  0
CIRCLE
  8
_0-0_
  6
CONTINUOUS
 62
    7
 10
1278.6563143343537
 20
394.64898360557993
 40
15.000000640692399
  0
CIRCLE
  8
_0-0_
  6
CONTINUOUS
 62
    7
 10
1278.6563143343537
 20
364.64896920104741
 40
15.000000640692399
  0
CIRCLE
  8
_0-0_
  6
CONTINUOUS
 62
    7
 10
1304.4199929255776
 20
379.86916969917911
 40
15.000000640692399
  0
CIRCLE
  8
_0-0_
  6
CONTINUOUS
 62
    7
 10
1330.6240843548278
 20
394.62276355640302
 40
15.000000640692399
  0
CIRCLE
  8
_0-0_
  6
CONTINUOUS
 62
    7
 10
1330.4039304284056
 20
364.67518925022432
 40
15.000000640692399
  0
CIRCLE
  8
_0-0_
  6
CONTINUOUS
 62
    7
 10
1278.6563143343537
 20
394.64898360557993
 40
10.000000153729353
  0
CIRCLE
  8
_0-0_
  6
CONTINUOUS
 62
    7
 10
1278.6563143343537
 20
364.64896920104741
 40
10.000000153729353
  0
CIRCLE
  8
_0-0_
  6
CONTINUOUS
 62
    7
 10
1304.8604057636039
 20
379.64898952646143
 40
10.000000153729353
  0
CIRCLE
  8
_0-0_
  6
CONTINUOUS
 62
    7
 10
1330.8443432664319
 20
394.40255713738986
 40
10.000000153729353
  0
CIRCLE
  8
_0-0_
  6
CONTINUOUS
 62
    7
 10
1331.0644971928541
 20
364.23480265849344
 40
10.000000153729353
  0
CIRCLE
  8
_0-0_
  6
CONTINUOUS
 62
    7
 10
1304.1522807117594
 20
402.39471158649928
 40
2.9999999640991328
  0
CIRCLE
  8
_0-0_
  6
CONTINUOUS
 62
    7
 10
1304.1522807117594
 20
356.28283128775223
 40
2.9999999640991328
  0
CIRCLE
  8
_0-0_
  6
CONTINUOUS
 62
    7
 10
1554.6963727207258
 20
434.89161481820474
 40
5.9999999281982657
  0
CIRCLE
  8
_0-0_
  6
CONTINUOUS
 62
    7
 10
1554.6963727207258
 20
398.89159228350661
 40
5.9999999281982657
  0
ARC
  8
_0-0_
  6
CONTINUOUS
 62
    7
 10
1554.6963727207258
 20
359.89159193002115
 40
14.000000379260442
 50
184.1312255859375
 51
355.37477111816406
  0
ARC
  8
_0-0_
  6
CONTINUOUS
 62
    7
 10
1554.6963727207258
 20
442.89159066336492
 40
31.999998523461773
 50
27.953186035156254
 51
152.24145507812497
  0
ARC
  8
_0-0_
  6
CONTINUOUS
 62
    7
 10
1554.6963727207258
 20
442.89159066336492
 40
27.00000049708893
 50
27.953186035156254
 51
152.24145507812497
  0
ARC
  8
_0-0_
  6
CONTINUOUS
 62
    7
 10
1554.6963727207258
 20
442.89159066336492
 40
21.999999189929152
 50
27.953186035156254
 51
152.24145507812497
  0
ARC
  8
_0-0_
  6
CONTINUOUS
 62
    7
 10
1533.209160528588
 20
454.41576158678203
 40
2.5000000384323382
 50
156.39982604980469
 51
327.67153930664062
  0
ARC
  8
_0-0_
  6
CONTINUOUS
 62
    7
 10
1576.4715592667862
 20
454.30647201243511
 40
2.5000000384323382
 50
205.20690917968753
 51
43.455200195312514
  0
ARC
  8
_0-0_
  6
CONTINUOUS
 62
    7
 10
1547.7860380783964
 20
360.76932054320815
 40
2.5000000384323382
 50
197.50628662109375
 51
9.8062133789062607
  0
ARC
  8
_0-0_
  6
CONTINUOUS
 62
    7
 10
1561.3070796539423
 20
360.3247870367926
 40
2.5000000384323382
 50
160.74749755859375
 51
351.59368896484375
  0
ARC
  8
_0-0_
  6
CONTINUOUS
 62
    7
 10
1533.5655852211028
 20
419.29504244299926
 40
2.5000000384323382
 50
22.169998168945313
 51
185.08273315429687
  0
ARC
  8
_0-0_
  6
CONTINUOUS
 62
    7
 10
1575.8256904278019
 20
419.29504244299926
 40
2.5000000384323382
 50
350.62074279785156
 51
157.16384887695312
  0
ARC
  8
_0-0_
  6
CONTINUOUS
 62
    7
 10
1523.1963037910607
 20
455.89159078119337
 40
1.9999999077163608
 50
90
 51
180
  0
ARC
  8
_0-0_
  6
CONTINUOUS
 62
    7
 10
1523.1963037910607
 20
419.89159449279077
 40
1.9999999077163608
 50
180
 51
270
  0
ARC
  8
_0-0_
  6
CONTINUOUS
 62
    7
 10
1586.1963366652085
 20
455.89159078119337
 40
1.9999999077163608
 50
0
 51
90
  0
ARC
  8
_0-0_
  6
CONTINUOUS
 62
    7
 10
1586.1963366652085
 20
419.89159449279077
 40
1.9999999077163608
 50
270
 51
0
  0
CIRCLE
  8
_0-0_
  6
CONTINUOUS
 62
    7
 10
1554.3275597767479
 20
765.92453874860485
 40
7.9999996308654433
  0
TEXT
  8
_0-0_
 62
    4
 10
839.25196608613351
 20
988.27066075387597
 40
15
 41
1
 50
0
  1
990
  0
TEXT
  8
_0-0_
 62
    4
 10
393.00194898627439
 20
953.6361542337188
 40
15
 41
1
 50
0
  1
112.5
  0
TEXT
  8
_0-0_
 62
    4
 10
839.25196608613351
 20
953.6361542337188
 40
15
 41
1
 50
0
  1
765
  0
TEXT
  8
_0-0_
 62
    4
 10
1270.5019438165496
 20
953.6361542337188
 40
15
 41
1
 50
0
  1
112.5
  0
TEXT
  8
_0-0_
 62
    4
 10
191.45823512218706
 20
758.41175680270976
 40
15
 41
1
 50
90.000002504478147
  1
79
  0
TEXT
  8
_0-0_
 62
    4
 10
191.45823512218706
 20
680.41175609573895
 40
15
 41
1
 50
90.000002504478147
  1
77
  0
TEXT
  8
_0-0_
 62
    4
 10
129.48073183726495
 20
716.16177462426845
 40
15
 41
1
 50
90.00000250447826
  1
156
  0
TEXT
  8
_0-0_
 62
    4
 10
164.11521194720896
 20
371.41198042644953
 40
15
 41
1
 50
90.000002504478147
  1
75
  0
TEXT
  8
_0-0_
 62
    4
 10
1487.7635952608334
 20
409.39160355085568
 40
15
 41
1
 50
90.000002504478147
  1
36
  0
TEXT
  8
_0-0_
 62
    4
 10
1424.6545879318019
 20
399.14160349194151
 40
15
 41
1
 50
90.00000250447826
  1
129
  0
TEXT
  8
_0-0_
 62
    4
 10
1547.1963202281349
 20
513.33339317056652
 40
15
 41
1
 50
0
  1
67
  0
TEXT
  8
_0-0_
 62
    4
 10
1595.7323669669249
 20
454.42914719747301
 40
12
 41
1
 50
0
  1
φ12
  0
TEXT
  8
_0-0_
 62
    4
 10
1595.7323669669249
 20
420.01878404064985
 40
12
 41
1
 50
0
  1
φ12
  0
TEXT
  8
_0-0_
 62
    4
 10
1546.8546984462662
 20
982.0487139491961
 40
15
 41
1
 50
0
  1
75
  0
TEXT
  8
_0-0_
 62
    4
 10
1546.8546984462662
 20
913.75375342645236
 40
15
 41
1
 50
0
  1
40
  0
TEXT
  8
_0-0_
 62
    4
 10
1568.1047330289271
 20
913.75375342645236
 40
15
 41
1
 50
0
  1
17.5
  0
POINT
  8
_0-0_
 62
    4
 10
355.50195150485825
 20
978.27061220853932
  0
POINT
  8
_0-0_
 62
    4
 10
1345.5019544211132
 20
978.27061220853932
  0
POINT
  8
_0-0_
 62
    4
 10
355.50195150485825
 20
943.63610568838226
  0
POINT
  8
_0-0_
 62
    4
 10
468.00194646769046
 20
943.63610568838226
  0
POINT
  8
_0-0_
 62
    4
 10
1233.0019332119855
 20
943.63610568838226
  0
POINT
  8
_0-0_
 62
    4
 10
1345.5019544211132
 20
943.63610568838226
  0
POINT
  8
_0-0_
 62
    4
 10
201.45823084709724
 20
805.41177533123937
  0
POINT
  8
_0-0_
 62
    4
 10
201.45823084709724
 20
726.41179076677122
  0
POINT
  8
_0-0_
 62
    4
 10
201.45823084709724
 20
649.41177391729752
  0
POINT
  8
_0-0_
 62
    4
 10
139.48072739825744
 20
805.41177533123937
  0
POINT
  8
_0-0_
 62
    4
 10
139.48072739825744
 20
649.41177391729752
  0
POINT
  8
_0-0_
 62
    4
 10
174.11522079526685
 20
416.41196562424591
  0
POINT
  8
_0-0_
 62
    4
 10
174.11522079526685
 20
341.41196898235773
  0
POINT
  8
_0-0_
 62
    4
 10
1497.7635384931527
 20
434.89161481820474
  0
POINT
  8
_0-0_
 62
    4
 10
1497.7635384931527
 20
398.89159228350661
  0
POINT
  8
_0-0_
 62
    4
 10
1434.6545310002034
 20
474.89159902918743
  0
POINT
  8
_0-0_
 62
    4
 10
1434.6545310002034
 20
345.89160795469536
  0
POINT
  8
_0-0_
 62
    4
 10
1521.1963360760662
 20
503.33339711782094
  0
POINT
  8
_0-0_
 62
    4
 10
1588.1963043802029
 20
503.33339711782094
  0
POINT
  8
_0-0_
 62
    4
 10
1516.8546738790269
 20
980.79865538843808
  0
POINT
  8
_0-0_
 62
    4
 10
1591.8547230135059
 20
980.79865538843808
  0
POINT
  8
_0-0_
 62
    4
 10
1534.3547588333658
 20
912.50379985087625
  0
POINT
  8
_0-0_
 62
    4
 10
1574.3547430443487
 20
912.50379985087625
  0
POINT
  8
_0-0_
 62
    4
 10
1591.8547230135059
 20
912.50379985087625
  0
TEXT
  8
_0-0_
 62
    3
 10
63.699784017278546
 20
236.76025917926566
 40
30
 41
1
 50
0
  1
SILVER STAR ROXCYC/TZ
  0
TEXT
  8
_0-0_
 62
    3
 10
63.699784017278546
 20
200.02159827213825
 40
30
 41
1
 50
0
  1
AKRICENTER.INC        7 FEB 2013
  0
ENDSEC
  0
EOF
